  0
SECTION
  2
HEADER
  9
$ACADVER
  1
AC1015
  9
$ACADMAINTVER
 70
     6
  9
$DWGCODEPAGE
  3
ANSI_1252
  9
$INSBASE
 10
0.0
 20
0.0
 30
0.0
  9
$EXTMIN
 10
0.0
 20
0.0
 30
0.0
  9
$EXTMAX
 10
22.0
 20
17.0
 30
0.0
  9
$LIMMIN
 10
0.0
 20
0.0
  9
$LIMMAX
 10
22.0
 20
17.0
  9
$ORTHOMODE
 70
     0
  9
$REGENMODE
 70
     1
  9
$FILLMODE
 70
     1
  9
$QTEXTMODE
 70
     0
  9
$MIRRTEXT
 70
     1
  9
$LTSCALE
 40
2.0
  9
$ATTMODE
 70
     1
  9
$TEXTSIZE
 40
0.2755905512
  9
$TRACEWID
 40
0.05
  9
$TEXTSTYLE
  7
Standard
  9
$CLAYER
  8
0
  9
$CELTYPE
  6
ByLayer
  9
$CECOLOR
 62
   256
  9
$CELTSCALE
 40
1.0
  9
$DISPSILH
 70
     0
  9
$DIMSCALE
 40
1.0
  9
$DIMASZ
 40
0.26
  9
$DIMEXO
 40
0.0787401575
  9
$DIMDLI
 40
0.38
  9
$DIMRND
 40
0.0
  9
$DIMDLE
 40
0.0
  9
$DIMEXE
 40
0.0787401575
  9
$DIMTP
 40
0.0
  9
$DIMTM
 40
0.0
  9
$DIMTXT
 40
0.2755905512
  9
$DIMCEN
 40
0.09
  9
$DIMTSZ
 40
0.0
  9
$DIMTOL
 70
     0
  9
$DIMLIM
 70
     0
  9
$DIMTIH
 70
     1
  9
$DIMTOH
 70
     1
  9
$DIMSE1
 70
     0
  9
$DIMSE2
 70
     0
  9
$DIMTAD
 70
     1
  9
$DIMZIN
 70
     0
  9
$DIMBLK
  1

  9
$DIMASO
 70
     1
  9
$DIMSHO
 70
     1
  9
$DIMPOST
  1

  9
$DIMAPOST
  1

  9
$DIMALT
 70
     0
  9
$DIMALTD
 70
     2
  9
$DIMALTF
 40
25.4
  9
$DIMLFAC
 40
1.0
  9
$DIMTOFL
 70
     0
  9
$DIMTVP
 40
0.0
  9
$DIMTIX
 70
     0
  9
$DIMSOXD
 70
     0
  9
$DIMSAH
 70
     0
  9
$DIMBLK1
  1

  9
$DIMBLK2
  1

  9
$DIMSTYLE
  2
Standard
  9
$DIMCLRD
 70
     0
  9
$DIMCLRE
 70
     0
  9
$DIMCLRT
 70
     0
  9
$DIMTFAC
 40
1.0
  9
$DIMGAP
 40
0.12
  9
$DIMJUST
 70
     0
  9
$DIMSD1
 70
     0
  9
$DIMSD2
 70
     0
  9
$DIMTOLJ
 70
     1
  9
$DIMTZIN
 70
     0
  9
$DIMALTZ
 70
     0
  9
$DIMALTTZ
 70
     0
  9
$DIMUPT
 70
     0
  9
$DIMDEC
 70
     2
  9
$DIMTDEC
 70
     2
  9
$DIMALTU
 70
     2
  9
$DIMALTTD
 70
     2
  9
$DIMTXSTY
  7
Standard
  9
$DIMAUNIT
 70
     0
  9
$DIMADEC
 70
     2
  9
$DIMALTRND
 40
0.0
  9
$DIMAZIN
 70
     0
  9
$DIMDSEP
 70
    46
  9
$DIMATFIT
 70
     3
  9
$DIMFRAC
 70
     0
  9
$DIMLDRBLK
  1

  9
$DIMLUNIT
 70
     2
  9
$DIMLWD
 70
    -2
  9
$DIMLWE
 70
    -2
  9
$DIMTMOVE
 70
     0
  9
$LUNITS
 70
     2
  9
$LUPREC
 70
     2
  9
$SKETCHINC
 40
0.1
  9
$FILLETRAD
 40
0.5
  9
$AUNITS
 70
     0
  9
$AUPREC
 70
     2
  9
$MENU
  1
.
  9
$ELEVATION
 40
0.0
  9
$PELEVATION
 40
0.0
  9
$THICKNESS
 40
0.0
  9
$LIMCHECK
 70
     0
  9
$CHAMFERA
 40
0.0
  9
$CHAMFERB
 40
0.0
  9
$CHAMFERC
 40
0.0
  9
$CHAMFERD
 40
0.0
  9
$SKPOLY
 70
     0
  9
$TDCREATE
 40
2458302.703006354
  9
$TDUCREATE
 40
2458303.036339688
  9
$TDUPDATE
 40
2458302.703008009
  9
$TDUUPDATE
 40
2458303.036341343
  9
$TDINDWG
 40
0.0000000116
  9
$TDUSRTIMER
 40
0.0000000116
  9
$USRTIMER
 70
     1
  9
$ANGBASE
 50
0.0
  9
$ANGDIR
 70
     0
  9
$PDMODE
 70
     0
  9
$PDSIZE
 40
-1.0
  9
$PLINEWID
 40
0.0
  9
$SPLFRAME
 70
     0
  9
$SPLINETYPE
 70
     6
  9
$SPLINESEGS
 70
     8
  9
$HANDSEED
  5
BD
  9
$SURFTAB1
 70
     6
  9
$SURFTAB2
 70
     6
  9
$SURFTYPE
 70
     6
  9
$SURFU
 70
     6
  9
$SURFV
 70
     6
  9
$UCSBASE
  2

  9
$UCSNAME
  2

  9
$UCSORG
 10
0.0
 20
0.0
 30
0.0
  9
$UCSXDIR
 10
1.0
 20
0.0
 30
0.0
  9
$UCSYDIR
 10
0.0
 20
1.0
 30
0.0
  9
$UCSORTHOREF
  2

  9
$UCSORTHOVIEW
 70
     0
  9
$UCSORGTOP
 10
0.0
 20
0.0
 30
0.0
  9
$UCSORGBOTTOM
 10
0.0
 20
0.0
 30
0.0
  9
$UCSORGLEFT
 10
0.0
 20
0.0
 30
0.0
  9
$UCSORGRIGHT
 10
0.0
 20
0.0
 30
0.0
  9
$UCSORGFRONT
 10
0.0
 20
0.0
 30
0.0
  9
$UCSORGBACK
 10
0.0
 20
0.0
 30
0.0
  9
$PUCSBASE
  2

  9
$PUCSNAME
  2

  9
$PUCSORG
 10
0.0
 20
0.0
 30
0.0
  9
$PUCSXDIR
 10
1.0
 20
0.0
 30
0.0
  9
$PUCSYDIR
 10
0.0
 20
1.0
 30
0.0
  9
$PUCSORTHOREF
  2

  9
$PUCSORTHOVIEW
 70
     0
  9
$PUCSORGTOP
 10
0.0
 20
0.0
 30
0.0
  9
$PUCSORGBOTTOM
 10
0.0
 20
0.0
 30
0.0
  9
$PUCSORGLEFT
 10
0.0
 20
0.0
 30
0.0
  9
$PUCSORGRIGHT
 10
0.0
 20
0.0
 30
0.0
  9
$PUCSORGFRONT
 10
0.0
 20
0.0
 30
0.0
  9
$PUCSORGBACK
 10
0.0
 20
0.0
 30
0.0
  9
$USERI1
 70
     0
  9
$USERI2
 70
     0
  9
$USERI3
 70
     0
  9
$USERI4
 70
     0
  9
$USERI5
 70
     0
  9
$USERR1
 40
0.0
  9
$USERR2
 40
0.0
  9
$USERR3
 40
0.0
  9
$USERR4
 40
0.0
  9
$USERR5
 40
0.0
  9
$WORLDVIEW
 70
     1
  9
$SHADEDGE
 70
     3
  9
$SHADEDIF
 70
    70
  9
$TILEMODE
 70
     1
  9
$MAXACTVP
 70
    64
  9
$PINSBASE
 10
0.0
 20
0.0
 30
0.0
  9
$PLIMCHECK
 70
     0
  9
$PEXTMIN
 10
1.0000000000E+20
 20
1.0000000000E+20
 30
1.0000000000E+20
  9
$PEXTMAX
 10
-1.0000000000E+20
 20
-1.0000000000E+20
 30
-1.0000000000E+20
  9
$PLIMMIN
 10
0.0
 20
0.0
  9
$PLIMMAX
 10
12.0
 20
9.0
  9
$UNITMODE
 70
     0
  9
$VISRETAIN
 70
     1
  9
$PLINEGEN
 70
     0
  9
$PSLTSCALE
 70
     1
  9
$TREEDEPTH
 70
  3020
  9
$CMLSTYLE
  2
Standard
  9
$CMLJUST
 70
     0
  9
$CMLSCALE
 40
1.0
  9
$PROXYGRAPHICS
 70
     1
  9
$MEASUREMENT
 70
     0
  9
$CELWEIGHT
370
    -1
  9
$ENDCAPS
280
     0
  9
$JOINSTYLE
280
     0
  9
$LWDISPLAY
290
     1
  9
$INSUNITS
 70
     1
  9
$HYPERLINKBASE
  1

  9
$STYLESHEET
  1

  9
$XEDIT
290
     1
  9
$CEPSNTYPE
380
     0
  9
$PSTYLEMODE
290
     1
  9
$FINGERPRINTGUID
  2
{4896EE07-F778-412C-A8A2-1FCA9B88FAAE}
  9
$VERSIONGUID
  2
{FAEB1C32-E019-11D5-929B-00C0DF256EC4}
  9
$EXTNAMES
290
     1
  9
$PSVPSCALE
 40
0.0
  9
$OLESTARTUP
290
     0
  0
ENDSEC
  0
SECTION
  2
CLASSES
  0
CLASS
  1
ACDBDICTIONARYWDFLT
  2
AcDbDictionaryWithDefault
  3
ObjectDBX Classes
 90
        0
280
     0
281
     0
  0
CLASS
  1
VISUALSTYLE
  2
AcDbVisualStyle
  3
ObjectDBX Classes
 90
     4095
280
     0
281
     0
  0
CLASS
  1
MATERIAL
  2
AcDbMaterial
  3
ObjectDBX Classes
 90
     1153
280
     0
281
     0
  0
CLASS
  1
SCALE
  2
AcDbScale
  3
ObjectDBX Classes
 90
     1153
280
     0
281
     0
  0
CLASS
  1
TABLESTYLE
  2
AcDbTableStyle
  3
ObjectDBX Classes
 90
     4095
280
     0
281
     0
  0
CLASS
  1
MLEADERSTYLE
  2
AcDbMLeaderStyle
  3
ACDB_MLEADERSTYLE_CLASS
 90
     4095
280
     0
281
     0
  0
CLASS
  1
SUN
  2
AcDbSun
  3
SCENEOE
 90
     1153
280
     0
281
     0
  0
CLASS
  1
ACDBPLACEHOLDER
  2
AcDbPlaceHolder
  3
ObjectDBX Classes
 90
        0
280
     0
281
     0
  0
CLASS
  1
LAYOUT
  2
AcDbLayout
  3
ObjectDBX Classes
 90
        0
280
     0
281
     0
  0
ENDSEC
  0
SECTION
  2
TABLES
  0
TABLE
  2
VPORT
  5
8
330
0
100
AcDbSymbolTable
 70
     1
  0
VPORT
  5
29
330
8
100
AcDbSymbolTableRecord
100
AcDbViewportTableRecord
  2
*Active
 70
     0
 10
0.0
 20
0.0
 11
1.0
 21
1.0
 12
11.0
 22
8.5
 13
0.0
 23
0.0
 14
0.5
 24
0.5
 15
0.5
 25
0.5
 16
0.0
 26
0.0
 36
1.0
 17
0.0
 27
0.0
 37
0.0
 40
17.0
 41
1.2941176471
 42
50.0
 43
0.0
 44
0.0
 50
0.0
 51
0.0
 71
     0
 72
  2000
 73
     1
 74
     3
 75
     0
 76
     0
 77
     0
 78
     0
281
     0
 65
     1
110
0.0
120
0.0
130
0.0
111
1.0
121
0.0
131
0.0
112
0.0
122
1.0
132
0.0
 79
     0
146
0.0
  0
ENDTAB
  0
TABLE
  2
LTYPE
  5
5
330
0
100
AcDbSymbolTable
 70
     6
  0
LTYPE
  5
14
330
5
100
AcDbSymbolTableRecord
100
AcDbLinetypeTableRecord
  2
ByBlock
 70
     0
  3

 72
    65
 73
     0
 40
0.0
  0
LTYPE
  5
15
330
5
100
AcDbSymbolTableRecord
100
AcDbLinetypeTableRecord
  2
ByLayer
 70
     0
  3

 72
    65
 73
     0
 40
0.0
  0
LTYPE
  5
16
330
5
100
AcDbSymbolTableRecord
100
AcDbLinetypeTableRecord
  2
Continuous
 70
     0
  3
Solid line
 72
    65
 73
     0
 40
0.0
  0
LTYPE
  5
6E
330
5
100
AcDbSymbolTableRecord
100
AcDbLinetypeTableRecord
  2
HIDDEN
 70
     0
  3
Hidden __ __ __ __ __ __ __ __ __ __ __ __ __ __
 72
    65
 73
     2
 40
0.075
 49
0.05
 74
     0
 49
-0.025
 74
     0
  0
LTYPE
  5
6F
330
5
100
AcDbSymbolTableRecord
100
AcDbLinetypeTableRecord
  2
PHANTOM
 70
     0
  3
Phantom ______  __  __  ______  __  __  ______
 72
    65
 73
     6
 40
0.5
 49
0.25
 74
     0
 49
-0.05
 74
     0
 49
0.05
 74
     0
 49
-0.05
 74
     0
 49
0.05
 74
     0
 49
-0.05
 74
     0
  0
LTYPE
  5
70
330
5
100
AcDbSymbolTableRecord
100
AcDbLinetypeTableRecord
  2
CENTER
 70
     0
  3
Center ____ _ ____ _ ____ _ ____ _ ____ _ ____
 72
    65
 73
     4
 40
0.4
 49
0.25
 74
     0
 49
-0.05
 74
     0
 49
0.05
 74
     0
 49
-0.05
 74
     0
  0
LTYPE
  5
71
330
5
100
AcDbSymbolTableRecord
100
AcDbLinetypeTableRecord
  2
CENTERX2
 70
     0
  3
Center (2x) ________  __  ________  __  _____
 72
    65
 73
     4
 40
0.8
 49
0.5
 74
     0
 49
-0.1
 74
     0
 49
0.1
 74
     0
 49
-0.1
 74
     0
  0
LTYPE
  5
72
330
5
100
AcDbSymbolTableRecord
100
AcDbLinetypeTableRecord
  2
DOT2
 70
     0
  3
Dot (.5x) ........................................
 72
    65
 73
     2
 40
0.025
 49
0.0
 74
     0
 49
-0.025
 74
     0
  0
ENDTAB
  0
TABLE
  2
LAYER
  5
2
330
0
100
AcDbSymbolTable
 70
     2
  0
LAYER
  5
10
330
2
100
AcDbSymbolTableRecord
100
AcDbLayerTableRecord
  2
0
 70
     0
 62
     7
  6
Continuous
370
    -3
390
F
  0
LAYER
  5
73
330
2
100
AcDbSymbolTableRecord
100
AcDbLayerTableRecord
  2
FORMAT
 70
     0
 62
     7
  6
Continuous
370
    -3
390
F
  0
ENDTAB
  0
TABLE
  2
STYLE
  5
3
330
0
100
AcDbSymbolTable
 70
     1
  0
STYLE
  5
11
330
3
100
AcDbSymbolTableRecord
100
AcDbTextStyleTableRecord
  2
Standard
 70
     0
 40
0.0
 41
1.0
 50
0.0
 71
     0
 42
0.2755905512
  3
txt
  4

  0
ENDTAB
  0
TABLE
  2
VIEW
  5
6
330
0
100
AcDbSymbolTable
 70
     0
  0
ENDTAB
  0
TABLE
  2
UCS
  5
7
330
0
100
AcDbSymbolTable
 70
     0
  0
ENDTAB
  0
TABLE
  2
APPID
  5
9
330
0
100
AcDbSymbolTable
 70
     1
  0
APPID
  5
12
330
9
100
AcDbSymbolTableRecord
100
AcDbRegAppTableRecord
  2
ACAD
 70
     0
  0
ENDTAB
  0
TABLE
  2
DIMSTYLE
  5
A
330
0
100
AcDbSymbolTable
 70
     1
100
AcDbDimStyleTable
  0
DIMSTYLE
105
27
330
A
100
AcDbSymbolTableRecord
100
AcDbDimStyleTableRecord
  2
Standard
 70
     0
178
     0
340
11
  0
ENDTAB
  0
TABLE
  2
BLOCK_RECORD
  5
1
330
0
100
AcDbSymbolTable
 70
     1
  0
BLOCK_RECORD
  5
1F
330
1
100
AcDbSymbolTableRecord
100
AcDbBlockTableRecord
  2
*Model_Space
340
22
  0
BLOCK_RECORD
  5
1B
330
1
100
AcDbSymbolTableRecord
100
AcDbBlockTableRecord
  2
*Paper_Space
340
1E
  0
BLOCK_RECORD
  5
23
330
1
100
AcDbSymbolTableRecord
100
AcDbBlockTableRecord
  2
*Paper_Space0
340
26
  0
ENDTAB
  0
ENDSEC
  0
SECTION
  2
BLOCKS
  0
BLOCK
  5
20
330
1F
100
AcDbEntity
  8
0
100
AcDbBlockBegin
  2
*Model_Space
 70
     0
 10
0.0
 20
0.0
 30
0.0
  3
*Model_Space
  1

  0
ENDBLK
  5
21
330
1F
100
AcDbEntity
  8
0
100
AcDbBlockEnd
  0
BLOCK
  5
1C
330
1B
100
AcDbEntity
 67
     1
  8
0
100
AcDbBlockBegin
  2
*Paper_Space
 70
     0
 10
0.0
 20
0.0
 30
0.0
  3
*Paper_Space
  1

  0
ENDBLK
  5
1D
330
1B
100
AcDbEntity
 67
     1
  8
0
100
AcDbBlockEnd
  0
BLOCK
  5
24
330
23
100
AcDbEntity
  8
0
100
AcDbBlockBegin
  2
*Paper_Space0
 70
     0
 10
0.0
 20
0.0
 30
0.0
  3
*Paper_Space0
  1

  0
ENDBLK
  5
25
330
23
100
AcDbEntity
  8
0
100
AcDbBlockEnd
  0
ENDSEC
  0
SECTION
  2
ENTITIES
  0
CIRCLE
  5
74
330
1F
100
AcDbEntity
  8
0
  6
Continuous
 62
     7
370
    25
100
AcDbCircle
 10
10.7642706119
 20
8.8297122775
 30
0.0
 40
3.543307086614174
  0
LINE
  5
75
330
1F
100
AcDbEntity
  8
0
  6
Continuous
 62
     7
370
    25
100
AcDbLine
 10
9.2554576382
 20
10.2296211457
 30
0.0
 11
9.8231493955
 21
10.2296211457
 31
0.0
  0
LINE
  5
76
330
1F
100
AcDbEntity
  8
0
  6
Continuous
 62
     7
370
    25
100
AcDbLine
 10
9.2164303686
 20
10.2686484153
 30
0.0
 11
9.2554576382
 21
10.2296211457
 31
0.0
  0
LINE
  5
77
330
1F
100
AcDbEntity
  8
0
  6
Continuous
 62
     7
370
    25
100
AcDbLine
 10
9.2164303686
 20
10.9792928852
 30
0.0
 11
9.2164303686
 21
10.2686484153
 31
0.0
  0
LINE
  5
78
330
1F
100
AcDbEntity
  8
0
  6
Continuous
 62
     7
370
    25
100
AcDbLine
 10
9.2751371225
 20
11.043631493
 30
0.0
 11
9.2164303686
 21
10.9792928852
 31
0.0
  0
SPLINE
  5
79
330
1F
100
AcDbEntity
  8
0
  6
Continuous
 62
     7
370
    25
100
AcDbSpline
210
0.0
220
0.0
230
1.0
 70
     8
 71
     3
 72
    28
 73
    24
 74
     0
 42
0.000000001
 43
0.00000001
 40
0.0
 40
0.0
 40
0.0
 40
0.0
 40
0.0161678574904903
 40
0.0321909226343861
 40
0.0480694808600271
 40
0.0638038138971534
 40
0.0793941997650064
 40
0.0948409127617612
 40
0.1101442234553305
 40
0.125304398675574
 40
0.1885898487097102
 40
0.2504498867017919
 40
0.3760270904063958
 40
0.4995778102595891
 40
0.4999873449487742
 40
0.6237327878478145
 40
0.7495571428673421
 40
0.8113822408974136
 40
0.8746446547213028
 40
0.9051139778348799
 40
0.9361615081650735
 40
0.9677894330509943
 40
1.0
 40
1.0
 40
1.0
 40
1.0
 10
12.25104505034927
 20
11.04372343434113
 30
0.0
 10
12.23602132268611
 20
11.04430338153466
 30
0.0
 10
12.20610841337396
 20
11.04545808216523
 30
0.0
 10
12.16107294659208
 20
11.04712894149601
 30
0.0
 10
12.1161912935239
 20
11.04874499238661
 30
0.0
 10
12.07145207086859
 20
11.05030255433838
 30
0.0
 10
12.02687736288781
 20
11.05180266911491
 30
0.0
 10
11.98247988710222
 20
11.05324511967733
 30
0.0
 10
11.93827373716343
 20
11.05463004974023
 30
0.0
 10
11.84757708263699
 20
11.0573660850854
 30
0.0
 10
11.71021392807319
 20
11.06109917164152
 30
0.0
 10
11.46101565761662
 20
11.06667001434339
 30
0.0
 10
11.14609825858792
 20
11.0713754177681
 30
0.0
 10
10.89036958118595
 20
11.07266526474466
 30
0.0
 10
10.63671412580939
 20
11.07266182946605
 30
0.0
 10
10.38053674140756
 20
11.07135915819591
 30
0.0
 10
10.06523859018326
 20
11.06662897445746
 30
0.0
 10
9.815895562424801
 20
11.06103862977346
 30
0.0
 10
9.66364087309505
 20
11.05689106938048
 30
0.0
 10
9.543223199675595
 20
11.0531808522571
 30
0.0
 10
9.454249438832186
 20
11.05022899145747
 30
0.0
 10
9.364531200723533
 20
11.04705764067146
 30
0.0
 10
9.305115903564163
 20
11.04478046504317
 30
0.0
 10
9.275137118791243
 20
11.04363148554944
 30
0.0
  0
LINE
  5
7A
330
1F
100
AcDbEntity
  8
0
  6
Continuous
 62
     7
370
    25
100
AcDbLine
 10
12.3121108552
 20
10.9826576308
 30
0.0
 11
12.2510450511
 21
11.0437234349
 31
0.0
  0
LINE
  5
7B
330
1F
100
AcDbEntity
  8
0
  6
Continuous
 62
     7
370
    25
100
AcDbLine
 10
12.3121108552
 20
10.2686484153
 30
0.0
 11
12.3121108552
 21
10.9826576308
 31
0.0
  0
LINE
  5
7C
330
1F
100
AcDbEntity
  8
0
  6
Continuous
 62
     7
370
    25
100
AcDbLine
 10
12.2745154084
 20
10.2310529684
 30
0.0
 11
12.3121108552
 21
10.2686484153
 31
0.0
  0
LINE
  5
7D
330
1F
100
AcDbEntity
  8
0
  6
Continuous
 62
     7
370
    25
100
AcDbLine
 10
11.7063139775
 20
10.2310529684
 30
0.0
 11
12.2745154084
 21
10.2310529684
 31
0.0
  0
SPLINE
  5
7E
330
1F
100
AcDbEntity
  8
0
  6
Continuous
 62
     7
370
    25
100
AcDbSpline
210
0.0
220
0.0
230
1.0
 70
     8
 71
     3
 72
    28
 73
    24
 74
     0
 42
0.000000001
 43
0.00000001
 40
0.0
 40
0.0
 40
0.0
 40
0.0
 40
0.0208764348530225
 40
0.0417545764733862
 40
0.0626572001850505
 40
0.0937413512577091
 40
0.1248614213862664
 40
0.1872000780430763
 40
0.2500149453730788
 40
0.3123830081799773
 40
0.3746271533874916
 40
0.4372875417330759
 40
0.499900760264847
 40
0.5621056649338798
 40
0.6244278608471616
 40
0.6872264101797985
 40
0.7495830418688604
 40
0.8117124707762262
 40
0.8741613674474408
 40
0.9056682357371183
 40
0.9370930692751892
 40
0.9685910171430313
 40
1.0
 40
1.0
 40
1.0
 40
1.0
 10
11.20641133460672
 20
9.731150325587675
 30
0.0
 10
11.20646521637564
 20
9.736723989219904
 30
0.0
 10
11.20657298431861
 20
9.74787177216308
 30
0.0
 10
11.20744130640604
 20
9.764542763976145
 30
0.0
 10
11.20904884262113
 20
9.783853035208258
 30
0.0
 10
11.21180117052731
 20
9.805738337301309
 30
0.0
 10
11.21752153275503
 20
9.838201536522751
 30
0.0
 10
11.22767496307927
 20
9.878193121054037
 30
0.0
 10
11.24444904039931
 20
9.924516290800428
 30
0.0
 10
11.26559084674849
 20
9.968762239896094
 30
0.0
 10
11.29083202018124
 20
10.01056030065079
 30
0.0
 10
11.31998309954608
 20
10.0496545222624
 30
0.0
 10
11.35274012545656
 20
10.08565608205446
 30
0.0
 10
11.38874067906396
 20
10.11823175807028
 30
0.0
 10
11.42777248903894
 20
10.1472131099411
 30
0.0
 10
11.46952685362044
 20
10.17231805857323
 30
0.0
 10
11.51358520864557
 20
10.1932630729211
 30
0.0
 10
11.5595309989788
 20
10.20985267413954
 30
0.0
 10
11.59923432328262
 20
10.21993203359468
 30
0.0
 10
11.63171127934693
 20
10.22566858122169
 30
0.0
 10
11.6564231936609
 20
10.22874979521138
 30
0.0
 10
11.68129445410101
 20
10.23069133071235
 30
0.0
 10
11.69798200302629
 20
10.23093253623423
 30
0.0
 10
11.70631397745391
 20
10.23105296843486
 30
0.0
  0
LINE
  5
7F
330
1F
100
AcDbEntity
  8
0
  6
Continuous
 62
     7
370
    25
100
AcDbLine
 10
11.2064113346
 20
6.7236889105
 30
0.0
 11
11.2064113346
 21
9.7311503256
 31
0.0
  0
LINE
  5
80
330
1F
100
AcDbEntity
  8
0
  6
Continuous
 62
     7
370
    25
100
AcDbLine
 10
11.1006264264
 20
6.6179040023
 30
0.0
 11
11.2064113346
 21
6.7236889105
 31
0.0
  0
LINE
  5
81
330
1F
100
AcDbEntity
  8
0
  6
Continuous
 62
     7
370
    25
100
AcDbLine
 10
10.4279147974
 20
6.6179040023
 30
0.0
 11
11.1006264264
 21
6.6179040023
 31
0.0
  0
LINE
  5
82
330
1F
100
AcDbEntity
  8
0
  6
Continuous
 62
     7
370
    25
100
AcDbLine
 10
10.322502617
 20
6.7233161827
 30
0.0
 11
10.4279147974
 21
6.6179040023
 31
0.0
  0
LINE
  5
83
330
1F
100
AcDbEntity
  8
0
  6
Continuous
 62
     7
370
    25
100
AcDbLine
 10
10.322502617
 20
9.7302679242
 30
0.0
 11
10.322502617
 21
6.7233161827
 31
0.0
  0
SPLINE
  5
84
330
1F
100
AcDbEntity
  8
0
  6
Continuous
 62
     7
370
    25
100
AcDbSpline
210
0.0
220
0.0
230
1.0
 70
     8
 71
     3
 72
    28
 73
    24
 74
     0
 42
0.000000001
 43
0.00000001
 40
0.0
 40
0.0
 40
0.0
 40
0.0
 40
0.0208559913802779
 40
0.0417355876658563
 40
0.0626641906611504
 40
0.0937264639934725
 40
0.1248744069046478
 40
0.1871996758854119
 40
0.2500170252709056
 40
0.3124112919635276
 40
0.3746412337138634
 40
0.4372374022565548
 40
0.4999232941278759
 40
0.5621371596673144
 40
0.6244013650451351
 40
0.6871793232919586
 40
0.7496166868341796
 40
0.8117403856584643
 40
0.874112517320958
 40
0.9055889666095098
 40
0.9370562083761554
 40
0.9685445559966069
 40
1.0
 40
1.0
 40
1.0
 40
1.0
 10
9.823149395542963
 20
10.22962114565406
 30
0.0
 10
9.828676952674586
 20
10.22956810398111
 30
0.0
 10
9.839738323051975
 20
10.22946196060241
 30
0.0
 10
9.856288579720312
 20
10.22860582987632
 30
0.0
 10
9.875458605974856
 20
10.22702010148629
 30
0.0
 10
9.897193295595686
 20
10.22430428481477
 30
0.0
 10
9.929425032096548
 20
10.21866089546509
 30
0.0
 10
9.969155667119228
 20
10.20863909144149
 30
0.0
 10
10.01522244908657
 20
10.19206801340216
 30
0.0
 10
10.05928330019113
 20
10.17115381364441
 30
0.0
 10
10.10096028914408
 20
10.14615290448975
 30
0.0
 10
10.14002562406953
 20
10.11722156377078
 30
0.0
 10
10.17607761040624
 20
10.08464173414739
 30
0.0
 10
10.20876427970664
 20
10.04875939692498
 30
0.0
 10
10.2378884978776
 20
10.00979894636321
 30
0.0
 10
10.26317586317758
 20
9.96802833430232
 30
0.0
 10
10.28431136781376
 20
9.923865852321171
 30
0.0
 10
10.30106557133335
 20
9.877762062866996
 30
0.0
 10
10.31124881869702
 20
9.837911908903685
 30
0.0
 10
10.31705030626384
 20
9.80529422623716
 30
0.0
 10
10.32016893379942
 20
9.780457097112874
 30
0.0
 10
10.32213661348051
 20
9.755436936268401
 30
0.0
 10
10.32238065834496
 20
9.738654670606282
 30
0.0
 10
10.32250261699044
 20
9.730267924206581
 30
0.0
  0
LINE
  5
85
330
1F
100
AcDbEntity
  8
0
  6
Continuous
 62
     7
370
    25
100
AcDbLine
 10
10.5280501395
 20
10.7942792067
 30
0.0
 11
11.0004910843
 21
10.7942792067
 31
0.0
  0
SPLINE
  5
86
330
1F
100
AcDbEntity
  8
0
  6
Continuous
 62
     7
370
    25
100
AcDbSpline
210
0.0
220
0.0
230
1.0
 70
     8
 71
     3
 72
    34
 73
    30
 74
     0
 42
0.000000001
 43
0.00000001
 40
0.0
 40
0.0
 40
0.0
 40
0.0
 40
0.0624999999999994
 40
0.0624999999999994
 40
0.1249999999999987
 40
0.1249999999999987
 40
0.249999999999998
 40
0.249999999999998
 40
0.3124999999999981
 40
0.3124999999999981
 40
0.3749999999999983
 40
0.3749999999999983
 40
0.4374999999999984
 40
0.4374999999999984
 40
0.4999999999999986
 40
0.4999999999999986
 40
0.5624999999999987
 40
0.5624999999999987
 40
0.6249999999999988
 40
0.6249999999999988
 40
0.687499999999999
 40
0.687499999999999
 40
0.7499999999999991
 40
0.7499999999999991
 40
0.8124999999999992
 40
0.8124999999999992
 40
0.8749999999999993
 40
0.8749999999999993
 40
1.0
 40
1.0
 40
1.0
 40
1.0
 10
10.52805013946084
 20
10.43994849798977
 30
0.0
 10
10.51564312022562
 20
10.43994849798977
 30
0.0
 10
10.50352822092196
 20
10.44123696724105
 30
0.0
 10
10.47984105508305
 20
10.44620484911256
 30
0.0
 10
10.46816262188902
 20
10.44995273376854
 30
0.0
 10
10.43541650201099
 20
10.46422913054218
 30
0.0
 10
10.41593591289613
 20
10.47805540370098
 30
0.0
 10
10.39227996816399
 20
10.50272921327294
 30
0.0
 10
10.38518970071551
 20
10.51173563608015
 30
0.0
 10
10.3730274299109
 20
10.53061741921312
 30
0.0
 10
10.36793666603644
 20
10.54047468548155
 30
0.0
 10
10.35964816776909
 20
10.56098309251695
 30
0.0
 10
10.3564528806492
 20
10.57170178992513
 30
0.0
 10
10.35216171920203
 20
10.59321535317244
 30
0.0
 10
10.35102315310595
 20
10.60408640060853
 30
0.0
 10
10.3507699440304
 20
10.6260581635935
 30
0.0
 10
10.35168281751526
 20
10.63720727720956
 30
0.0
 10
10.35553609565146
 20
10.65892393080122
 30
0.0
 10
10.35846501833149
 20
10.66959104508863
 30
0.0
 10
10.36642244206903
 20
10.69052677015587
 30
0.0
 10
10.37151084629784
 20
10.70085503376737
 30
0.0
 10
10.38351460626884
 20
10.72019932859622
 30
0.0
 10
10.39045483234528
 20
10.72932437216324
 30
0.0
 10
10.40635748031207
 20
10.746398677466
 30
0.0
 10
10.41540059472165
 20
10.75436928470201
 30
0.0
 10
10.43475406607658
 20
10.76819269378833
 30
0.0
 10
10.4451534231428
 20
10.77416595552997
 30
0.0
 10
10.47871399507583
 20
10.78902130220908
 30
0.0
 10
10.5032111392073
 20
10.79427920665118
 30
0.0
 10
10.52805013946084
 20
10.79427920665118
 30
0.0
  0
LINE
  5
87
330
1F
100
AcDbEntity
  8
0
  6
Continuous
 62
     7
370
    25
100
AcDbLine
 10
11.0004910843
 20
10.439948498
 30
0.0
 11
10.5280501395
 21
10.439948498
 31
0.0
  0
SPLINE
  5
88
330
1F
100
AcDbEntity
  8
0
  6
Continuous
 62
     7
370
    25
100
AcDbSpline
210
0.0
220
0.0
230
1.0
 70
     8
 71
     3
 72
    34
 73
    30
 74
     0
 42
0.000000001
 43
0.00000001
 40
0.0
 40
0.0
 40
0.0
 40
0.0
 40
0.0625000000000005
 40
0.0625000000000005
 40
0.125000000000001
 40
0.125000000000001
 40
0.2500000000000023
 40
0.2500000000000023
 40
0.3125000000000026
 40
0.3125000000000026
 40
0.3750000000000029
 40
0.3750000000000029
 40
0.5000000000000023
 40
0.5000000000000023
 40
0.5625000000000021
 40
0.5625000000000021
 40
0.6250000000000019
 40
0.6250000000000019
 40
0.6875000000000016
 40
0.6875000000000016
 40
0.7500000000000012
 40
0.7500000000000012
 40
0.812500000000001
 40
0.812500000000001
 40
0.8750000000000007
 40
0.8750000000000007
 40
0.9375000000000004
 40
0.9375000000000004
 40
1.0
 40
1.0
 40
1.0
 40
1.0
 10
11.00049108434273
 20
10.79427920665118
 30
0.0
 10
11.0128924039928
 20
10.79427920665118
 30
0.0
 10
11.02508924915539
 20
10.79299133589384
 30
0.0
 10
11.04908745806327
 20
10.78792471673332
 30
0.0
 10
11.06097210477535
 20
10.78407808323783
 30
0.0
 10
11.09429384756157
 20
10.76935834726436
 30
0.0
 10
11.11417838579027
 20
10.75498910331202
 30
0.0
 10
11.13808838919184
 20
10.72932459430275
 30
0.0
 10
11.14518995400548
 20
10.71997327085938
 30
0.0
 10
11.15719172535703
 20
10.70055683866174
 30
0.0
 10
11.1621780749764
 20
10.69041199510011
 30
0.0
 10
11.17418315198757
 20
10.6587020719548
 30
0.0
 10
11.17794272127299
 20
10.63676830546272
 30
0.0
 10
11.17748829722562
 20
10.60364151186237
 30
0.0
 10
11.1763154007574
 20
10.59276259904606
 30
0.0
 10
11.17198536863953
 20
10.57132210380339
 30
0.0
 10
11.16879699785666
 20
10.56068599772555
 30
0.0
 10
11.1604294683619
 20
10.54010283612616
 30
0.0
 10
11.15531777204864
 20
10.53027915725998
 30
0.0
 10
11.14322617551651
 20
10.51157589118874
 30
0.0
 10
11.13618789785263
 20
10.50263422174127
 30
0.0
 10
11.12028813581499
 20
10.48608760505358
 30
0.0
 10
11.11158195166104
 20
10.47862071151631
 30
0.0
 10
11.09261867936078
 20
10.46534416797104
 30
0.0
 10
11.0822339484763
 20
10.45947926126796
 30
0.0
 10
11.0603092559441
 20
10.44992429977809
 30
0.0
 10
11.04892238791818
 20
10.44626881978985
 30
0.0
 10
11.02527346228027
 20
10.44127457897641
 30
0.0
 10
11.01290643717873
 20
10.43994849798976
 30
0.0
 10
11.00049108434273
 20
10.43994849798976
 30
0.0
  0
SPLINE
  5
89
330
1F
100
AcDbEntity
  8
0
  6
Continuous
 62
     7
370
    25
100
AcDbSpline
210
0.0
220
0.0
230
1.0
 70
    11
 71
     3
 72
    68
 73
    64
 74
     0
 42
0.000000001
 43
0.00000001
 40
0.0
 40
0.0
 40
0.0
 40
0.0
 40
0.03125
 40
0.03125
 40
0.0625
 40
0.0625
 40
0.0937499999999999
 40
0.0937499999999999
 40
0.1249999999999999
 40
0.1249999999999999
 40
0.1562499999999999
 40
0.1562499999999999
 40
0.1874999999999999
 40
0.1874999999999999
 40
0.2187499999999999
 40
0.2187499999999999
 40
0.2499999999999998
 40
0.2499999999999998
 40
0.2812499999999998
 40
0.2812499999999998
 40
0.3124999999999997
 40
0.3124999999999997
 40
0.3437499999999997
 40
0.3437499999999997
 40
0.3749999999999997
 40
0.3749999999999997
 40
0.4062499999999997
 40
0.4062499999999997
 40
0.4374999999999997
 40
0.4374999999999997
 40
0.4687499999999996
 40
0.4687499999999996
 40
0.4999999999999996
 40
0.4999999999999996
 40
0.5312499999999996
 40
0.5312499999999996
 40
0.5624999999999996
 40
0.5624999999999996
 40
0.5937499999999994
 40
0.5937499999999994
 40
0.6249999999999994
 40
0.6249999999999994
 40
0.6562499999999994
 40
0.6562499999999994
 40
0.6874999999999994
 40
0.6874999999999994
 40
0.7187499999999994
 40
0.7187499999999994
 40
0.7499999999999994
 40
0.7499999999999994
 40
0.8124999999999994
 40
0.8124999999999994
 40
0.8437499999999996
 40
0.8437499999999996
 40
0.8749999999999997
 40
0.8749999999999997
 40
0.9062499999999998
 40
0.9062499999999998
 40
0.9374999999999998
 40
0.9374999999999998
 40
0.9687499999999999
 40
0.9687499999999999
 40
1.0
 40
1.0
 40
1.0
 40
1.0
 10
10.99046128227458
 20
6.994880912755072
 30
0.0
 10
10.97703527090505
 20
6.980060567446605
 30
0.0
 10
10.96225916113049
 20
6.966648761454107
 30
0.0
 10
10.92995698379617
 20
6.942686363049809
 30
0.0
 10
10.91218964246142
 20
6.932038677393225
 30
0.0
 10
10.87502046879477
 20
6.914649255517541
 30
0.0
 10
10.85562235420253
 20
6.907834168440635
 30
0.0
 10
10.81512341645546
 20
6.898132377975637
 30
0.0
 10
10.79408061586603
 20
6.895331854254825
 30
0.0
 10
10.7524502704889
 20
6.894104416634417
 30
0.0
 10
10.731393555539
 20
6.895638146315435
 30
0.0
 10
10.6901146694703
 20
6.902990131231839
 30
0.0
 10
10.67022545791838
 20
6.908703131417358
 30
0.0
 10
10.63187873019174
 20
6.9240211169045
 30
0.0
 10
10.61346151257901
 20
6.93367721483119
 30
0.0
 10
10.57964495055106
 20
6.955919523495504
 30
0.0
 10
10.56391293618211
 20
6.968689015022846
 30
0.0
 10
10.53543587543644
 20
6.996847682636735
 30
0.0
 10
10.52287403221917
 20
7.012012357146356
 30
0.0
 10
10.50087421926812
 20
7.044370702465065
 30
0.0
 10
10.49140897503155
 20
7.061700194483942
 30
0.0
 10
10.47619285290638
 20
7.097156943911647
 30
0.0
 10
10.47033727954034
 20
7.115398347849464
 30
0.0
 10
10.46207907541736
 20
7.152895368937019
 30
0.0
 10
10.45972894199764
 20
7.172100807468356
 30
0.0
 10
10.4586477903568
 20
7.210138355504856
 30
0.0
 10
10.45987168081127
 20
7.229143023937657
 30
0.0
 10
10.465964067138
 20
7.267121953148742
 30
0.0
 10
10.47083890830744
 20
7.285915955467601
 30
0.0
 10
10.48395919489216
 20
7.322041494476099
 30
0.0
 10
10.49222514236888
 20
7.339535491662564
 30
0.0
 10
10.51241314582301
 20
7.373299150867103
 30
0.0
 10
10.52422894474269
 20
7.389319979089953
 30
0.0
 10
10.55068641089402
 20
7.418704284215456
 30
0.0
 10
10.56540908916872
 20
7.432216064078099
 30
0.0
 10
10.59814244015542
 20
7.456634818401033
 30
0.0
 10
10.61568818010407
 20
7.467170513650269
 30
0.0
 10
10.65268544660751
 20
7.484601980935114
 30
0.0
 10
10.67244142180611
 20
7.491604047059375
 30
0.0
 10
10.71309032237703
 20
7.501400072970548
 30
0.0
 10
10.73370289711709
 20
7.504181008491101
 30
0.0
 10
10.77550445441896
 20
7.505505676267752
 30
0.0
 10
10.79678138219867
 20
7.50397306036849
 30
0.0
 10
10.83778009373025
 20
7.496742228084712
 30
0.0
 10
10.85789097654853
 20
7.491028506716977
 30
0.0
 10
10.89658280934764
 20
7.475612572501884
 30
0.0
 10
10.91473082588421
 20
7.466112062758198
 30
0.0
 10
10.94878306160194
 20
7.443758906856137
 30
0.0
 10
10.96473019395074
 20
7.430801455543182
 30
0.0
 10
11.00735371072263
 20
7.388626823176469
 30
0.0
 10
11.02980430720284
 20
7.355162007162316
 30
0.0
 10
11.05258678866377
 20
7.301764700517106
 30
0.0
 10
11.05850090376233
 20
7.283158443166546
 30
0.0
 10
11.06664900190459
 20
7.245495520087257
 30
0.0
 10
11.06889862934492
 20
7.226545563400635
 30
0.0
 10
11.06985968653029
 20
7.188417706985862
 30
0.0
 10
11.06852737269435
 20
7.169060648799229
 30
0.0
 10
11.06230646102505
 20
7.131298940055652
 30
0.0
 10
11.05745761410804
 20
7.112838630065419
 30
0.0
 10
11.04424244344295
 20
7.076766184746043
 30
0.0
 10
11.03577357244971
 20
7.059012859259924
 30
0.0
 10
11.01559979266393
 20
7.025532616527537
 30
0.0
 10
11.00388729364409
 20
7.009701258063537
 30
0.0
 10
10.99046128227457
 20
6.994880912755072
 30
0.0
  0
SPLINE
  5
8A
330
1F
100
AcDbEntity
  8
0
  6
Continuous
 62
     7
370
    25
100
AcDbSpline
210
0.0
220
0.0
230
1.0
 70
    11
 71
     3
 72
    64
 73
    60
 74
     0
 42
0.000000001
 43
0.00000001
 40
0.0
 40
0.0
 40
0.0
 40
0.0
 40
0.03125
 40
0.03125
 40
0.0625
 40
0.0625
 40
0.09375
 40
0.09375
 40
0.125
 40
0.125
 40
0.15625
 40
0.15625
 40
0.1875
 40
0.1875
 40
0.25
 40
0.25
 40
0.28125
 40
0.28125
 40
0.3125
 40
0.3125
 40
0.34375
 40
0.34375
 40
0.375
 40
0.375
 40
0.40625
 40
0.40625
 40
0.4375
 40
0.4375
 40
0.46875
 40
0.46875
 40
0.5
 40
0.5
 40
0.53125
 40
0.53125
 40
0.5625
 40
0.5625
 40
0.625
 40
0.625
 40
0.65625
 40
0.65625
 40
0.6875
 40
0.6875
 40
0.71875
 40
0.71875
 40
0.75
 40
0.75
 40
0.78125
 40
0.78125
 40
0.8125
 40
0.8125
 40
0.84375
 40
0.84375
 40
0.875
 40
0.875
 40
0.90625
 40
0.90625
 40
0.9375
 40
0.9375
 40
1.0
 40
1.0
 40
1.0
 40
1.0
 10
10.89247373847431
 20
8.677570957161457
 30
0.0
 10
10.88398312933704
 20
8.669101234204373
 30
0.0
 10
10.87480331111358
 20
8.66160615783984
 30
0.0
 10
10.85512161523943
 20
8.648485598442424
 30
0.0
 10
10.84449519458777
 20
8.642814878902167
 30
0.0
 10
10.82249608264536
 20
8.63373995151171
 30
0.0
 10
10.81117635490286
 20
8.630323824842087
 30
0.0
 10
10.787902287045
 20
8.625714173285076
 30
0.0
 10
10.77587249165394
 20
8.62454440437317
 30
0.0
 10
10.75218747149737
 20
8.62457580045156
 30
0.0
 10
10.74041303765291
 20
8.625739101135842
 30
0.0
 10
10.71700357271794
 20
8.630415699856997
 30
0.0
 10
10.7055485966569
 20
8.633913733793856
 30
0.0
 10
10.67279429540802
 20
8.647520271246778
 30
0.0
 10
10.65254879002293
 20
8.66106577122327
 30
0.0
 10
10.62745305300886
 20
8.686197134982676
 30
0.0
 10
10.61979491782432
 20
8.69554210148857
 30
0.0
 10
10.60663064577747
 20
8.715295098039826
 30
0.0
 10
10.60106455436787
 20
8.725725927846742
 30
0.0
 10
10.59197579582695
 20
8.747702434682024
 30
0.0
 10
10.58849066376184
 20
8.75924387841127
 30
0.0
 10
10.58389767926141
 20
8.782451786551848
 30
0.0
 10
10.58273170925714
 20
8.794240599879261
 30
0.0
 10
10.58274903475684
 20
8.81820237065828
 30
0.0
 10
10.58393653375555
 20
8.830021419468768
 30
0.0
 10
10.58856522879807
 20
8.853214532979383
 30
0.0
 10
10.59205942275428
 20
8.864727419470736
 30
0.0
 10
10.60119394661832
 20
8.886719101433666
 30
0.0
 10
10.60677949268157
 20
8.897141814771656
 30
0.0
 10
10.61996199452581
 20
8.916855146306887
 30
0.0
 10
10.62763789244561
 20
8.926194716548192
 30
0.0
 10
10.64440624818603
 20
8.942933651599864
 30
0.0
 10
10.65354995443204
 20
8.950438492208244
 30
0.0
 10
10.67338732901177
 20
8.963683737770605
 30
0.0
 10
10.68397418783751
 20
8.969324768872804
 30
0.0
 10
10.7167513973567
 20
8.982879115144177
 30
0.0
 10
10.74064809717198
 20
8.987626790103874
 30
0.0
 10
10.7761540982271
 20
8.987617371798082
 30
0.0
 10
10.78817179120388
 20
8.986431581943567
 30
0.0
 10
10.81146271785083
 20
8.98178079527434
 30
0.0
 10
10.82277516869127
 20
8.978344939987288
 30
0.0
 10
10.84473263736233
 20
8.969247610255243
 30
0.0
 10
10.85536989342885
 20
8.963551826073966
 30
0.0
 10
10.87503818919823
 20
8.95039468989502
 30
0.0
 10
10.88419816169278
 20
8.942888986371196
 30
0.0
 10
10.90112203314238
 20
8.925957679454608
 30
0.0
 10
10.90866131521109
 20
8.916744544646312
 30
0.0
 10
10.92179539285164
 20
8.897079217948836
 30
0.0
 10
10.92746405593425
 20
8.886483743130176
 30
0.0
 10
10.93657230704935
 20
8.864462680401132
 30
0.0
 10
10.93999703911101
 20
8.853142799288632
 30
0.0
 10
10.94462331579326
 20
8.829894088567656
 30
0.0
 10
10.94580606174699
 20
8.817862008675917
 30
0.0
 10
10.94579570207108
 20
8.79415976690045
 30
0.0
 10
10.94464114366717
 20
8.782389245344815
 30
0.0
 10
10.93999458954756
 20
8.759012113315856
 30
0.0
 10
10.93649861882312
 20
8.747519253034122
 30
0.0
 10
10.92291943046535
 20
8.71475020800838
 30
0.0
 10
10.90945495674884
 20
8.694510403075629
 30
0.0
 10
10.89247373847431
 20
8.677570957161457
 30
0.0
  0
LINE
  5
8B
330
1F
100
AcDbEntity
  8
0
  6
Continuous
 62
     7
370
    25
100
AcDbLine
 10
10.2632355351
 20
6.6614560157
 30
0.0
 11
10.2445855725
 21
6.6801059783
 31
0.0
  0
LINE
  5
8C
330
1F
100
AcDbEntity
  8
0
  6
Continuous
 62
     7
370
    25
100
AcDbLine
 10
10.2445855725
 20
6.6801059783
 30
0.0
 11
10.2445855725
 21
9.7037280255
 31
0.0
  0
SPLINE
  5
8D
330
1F
100
AcDbEntity
  8
0
  6
Continuous
 62
     7
370
    25
100
AcDbSpline
210
0.0
220
0.0
230
1.0
 70
     8
 71
     3
 72
     8
 73
     4
 74
     0
 42
0.000000001
 43
0.00000001
 40
0.0
 40
0.0
 40
0.0
 40
0.0
 40
1.0
 40
1.0
 40
1.0
 40
1.0
 10
10.32250261699045
 20
6.723316182744522
 30
0.0
 10
10.30220126294429
 20
6.703025518645849
 30
0.0
 10
10.28242862779099
 20
6.682409985997012
 30
0.0
 10
10.26323553514775
 20
6.661456015689765
 30
0.0
  0
SPLINE
  5
8E
330
1F
100
AcDbEntity
  8
0
  6
Continuous
 62
     7
370
    25
100
AcDbSpline
210
0.0
220
0.0
230
1.0
 70
     8
 71
     3
 72
     8
 73
     4
 74
     0
 42
0.000000001
 43
0.00000001
 40
0.0
 40
0.0
 40
0.0
 40
0.0
 40
1.0
 40
1.0
 40
1.0
 40
1.0
 10
11.26336853378469
 20
6.659518860816459
 30
0.0
 10
11.24494030976083
 20
6.681221161494565
 30
0.0
 10
11.22593862878382
 20
6.702608122382057
 30
0.0
 10
11.20641133460673
 20
6.723688910535899
 30
0.0
  0
LINE
  5
8F
330
1F
100
AcDbEntity
  8
0
  6
Continuous
 62
     7
370
    25
100
AcDbLine
 10
11.2839556513
 20
9.7037280255
 30
0.0
 11
11.2839556513
 21
6.6801059783
 31
0.0
  0
LINE
  5
90
330
1F
100
AcDbEntity
  8
0
  6
Continuous
 62
     7
370
    25
100
AcDbLine
 10
11.2839556513
 20
6.6801059783
 30
0.0
 11
11.2633685338
 21
6.6595188608
 31
0.0
  0
SPLINE
  5
91
330
1F
100
AcDbEntity
  8
0
  6
Continuous
 62
     7
370
    25
100
AcDbSpline
210
0.0
220
0.0
230
1.0
 70
     8
 71
     3
 72
    27
 73
    23
 74
     0
 42
0.000000001
 43
0.00000001
 40
0.0
 40
0.0
 40
0.0
 40
0.0
 40
0.0241645018617677
 40
0.0487468481321094
 40
0.0737497590785369
 40
0.0991758198918886
 40
0.1250274887257438
 40
0.1853451480746857
 40
0.2492545522208911
 40
0.3091251579235205
 40
0.3746597162115219
 40
0.4371362504369516
 40
0.4996073088837931
 40
0.5625710428696724
 40
0.6254356764039095
 40
0.6878959963216063
 40
0.7504575264088771
 40
0.8155696131683382
 40
0.8756398357973983
 40
0.9186318625058699
 40
0.9600821078683403
 40
1.0
 40
1.0
 40
1.0
 40
1.0
 10
10.2445855725328
 20
9.70372802554882
 30
0.0
 10
10.24452755796592
 20
9.708855168791214
 30
0.0
 10
10.24441052566385
 20
9.719198112106094
 30
0.0
 10
10.24345779845815
 20
9.73475916665444
 30
0.0
 10
10.24190867284747
 20
9.750490063023252
 30
0.0
 10
10.23968292576239
 20
9.76635864134769
 30
0.0
 10
10.23549733218744
 20
9.789346354394842
 30
0.0
 10
10.22778600322389
 20
9.819683431268675
 30
0.0
 10
10.21480943585805
 20
9.855545774293129
 30
0.0
 10
10.19805506696279
 20
9.890732265762507
 30
0.0
 10
10.17818063057409
 20
9.923707923928326
 30
0.0
 10
10.15490302663341
 20
9.95484381441072
 30
0.0
 10
10.12913676742809
 20
9.983127900170114
 30
0.0
 10
10.10071878844678
 20
10.00880866716165
 30
0.0
 10
10.06992613418718
 20
10.03161433097843
 30
0.0
 10
10.03707465383376
 20
10.05132242031424
 30
0.0
 10
10.00193626551723
 20
10.06800523558466
 30
0.0
 10
9.96559099057089
 20
10.08100813849983
 30
0.0
 10
9.93185795317954
 20
10.08946873500453
 30
0.0
 10
9.902222364208887
 20
10.09434330604381
 30
0.0
 10
9.876372008226145
 20
10.09695550972579
 30
0.0
 10
9.85927318918219
 20
10.09727303847972
 30
0.0
 10
9.850884785131223
 20
10.09742881295039
 30
0.0
  0
SPLINE
  5
92
330
1F
100
AcDbEntity
  8
0
  6
Continuous
 62
     7
370
    25
100
AcDbSpline
210
0.0
220
0.0
230
1.0
 70
     8
 71
     3
 72
    27
 73
    23
 74
     0
 42
0.000000001
 43
0.00000001
 40
0.0
 40
0.0
 40
0.0
 40
0.0
 40
0.0239436026768911
 40
0.0484471648109167
 40
0.0735129193793825
 40
0.0991429521706922
 40
0.1253392139391519
 40
0.1851330853176591
 40
0.2499600471668179
 40
0.3124848532452977
 40
0.3755170760080753
 40
0.438107565720721
 40
0.5005888508172693
 40
0.5634613532988784
 40
0.6263351949679429
 40
0.691525504282753
 40
0.751134741744134
 40
0.8153896816204248
 40
0.8760142348721566
 40
0.9184964430012823
 40
0.9598211265999766
 40
1.0
 40
1.0
 40
1.0
 40
1.0
 10
11.67765643867453
 20
10.09742881295039
 30
0.0
 10
11.67262200795124
 20
10.09737284991718
 30
0.0
 10
11.66243540828737
 20
10.09725961506568
 30
0.0
 10
11.64706458578664
 20
10.09633371712707
 30
0.0
 10
11.63143524204726
 20
10.09481536936458
 30
0.0
 10
11.61558016883624
 20
10.09261543807205
 30
0.0
 10
11.59278546834666
 20
10.08849816120735
 30
0.0
 10
11.5625442258958
 20
10.08088118265612
 30
0.0
 10
11.52632955093749
 20
10.06788651229064
 30
0.0
 10
11.49115659897387
 20
10.05116240005283
 30
0.0
 10
11.45828047995063
 20
10.03139395495932
 30
0.0
 10
11.42754812273242
 20
10.00857409350126
 30
0.0
 10
11.39920184599838
 20
9.982924789926138
 30
0.0
 10
11.37340864128333
 20
9.954578073911705
 30
0.0
 10
11.35011208847094
 20
9.923338809379528
 30
0.0
 10
11.33030055241422
 20
9.890374099619596
 30
0.0
 10
11.31359516903421
 20
9.855222098789996
 30
0.0
 10
11.30062345515341
 20
9.819268459316833
 30
0.0
 10
11.29205898473368
 20
9.785424440438227
 30
0.0
 10
11.28710343795199
 20
9.75554328594262
 30
0.0
 10
11.28444211685456
 20
9.729534819780355
 30
0.0
 10
11.28411627954897
 20
9.712249287943823
 30
0.0
 10
11.28395565127295
 20
9.70372802554882
 30
0.0
  0
SPLINE
  5
93
330
1F
100
AcDbEntity
  8
0
  6
Continuous
 62
     7
370
    25
100
AcDbSpline
210
0.0
220
0.0
230
1.0
 70
     8
 71
     3
 72
     8
 73
     4
 74
     0
 42
0.000000001
 43
0.00000001
 40
0.0
 40
0.0
 40
0.0
 40
0.0
 40
0.0018701986156302
 40
0.0018701986156302
 40
0.0018701986156302
 40
0.0018701986156302
 10
9.240497193056536
 20
10.12513923966856
 30
0.0
 10
9.245601386208596
 20
10.15985069351746
 30
0.0
 10
9.250583671967263
 20
10.19468298881449
 30
0.0
 10
9.255457638189775
 20
10.22962114565406
 30
0.0
  0
LINE
  5
94
330
1F
100
AcDbEntity
  8
0
  6
Continuous
 62
     7
370
    25
100
AcDbLine
 10
9.8508847851
 20
10.097428813
 30
0.0
 11
9.2682076198
 21
10.097428813
 31
0.0
  0
LINE
  5
95
330
1F
100
AcDbEntity
  8
0
  6
Continuous
 62
     7
370
    25
100
AcDbLine
 10
9.2682076198
 20
10.097428813
 30
0.0
 11
9.2404971931
 21
10.1251392397
 31
0.0
  0
LINE
  5
96
330
1F
100
AcDbEntity
  8
0
  6
Continuous
 62
     7
370
    25
100
AcDbLine
 10
12.2910230653
 20
10.1281182742
 30
0.0
 11
12.260333604
 21
10.097428813
 31
0.0
  0
LINE
  5
97
330
1F
100
AcDbEntity
  8
0
  6
Continuous
 62
     7
370
    25
100
AcDbLine
 10
12.260333604
 20
10.097428813
 30
0.0
 11
11.6776564387
 21
10.097428813
 31
0.0
  0
SPLINE
  5
98
330
1F
100
AcDbEntity
  8
0
  6
Continuous
 62
     7
370
    25
100
AcDbSpline
210
0.0
220
0.0
230
1.0
 70
     8
 71
     3
 72
     8
 73
     4
 74
     0
 42
0.000000001
 43
0.00000001
 40
0.0
 40
0.0
 40
0.0
 40
0.0
 40
0.0018700937827294
 40
0.0018700937827294
 40
0.0018700937827294
 40
0.0018700937827294
 10
12.27451540839459
 20
10.23105296843486
 30
0.0
 10
12.27989880294405
 20
10.19662161410889
 30
0.0
 10
12.28539667650871
 20
10.1623046387406
 30
0.0
 10
12.29102306532372
 20
10.12811827424525
 30
0.0
  0
LINE
  5
99
330
1F
100
AcDbEntity
  8
0
  6
Continuous
 62
     7
370
    25
100
AcDbLine
 10
9.1107273048
 20
10.2549091279
 30
0.0
 11
9.1107273048
 21
10.2813707654
 31
0.0
  0
SPLINE
  5
9A
330
1F
100
AcDbEntity
  8
0
  6
Continuous
 62
     7
370
    25
100
AcDbSpline
210
0.0
220
0.0
230
1.0
 70
     8
 71
     3
 72
     8
 73
     4
 74
     0
 42
0.000000001
 43
0.00000001
 40
0.0
 40
0.0
 40
0.0
 40
0.0
 40
1.0
 40
1.0
 40
1.0
 40
1.0
 10
9.216430368559328
 20
10.26864841528451
 30
0.0
 10
9.180875596859686
 20
10.27209958585187
 30
0.0
 10
9.145624074445522
 20
10.27632799515788
 30
0.0
 10
9.110727304814073
 20
10.28137076539477
 30
0.0
  0
LINE
  5
9B
330
1F
100
AcDbEntity
  8
0
  6
Continuous
 62
     7
370
    25
100
AcDbLine
 10
9.2404971931
 20
10.1251392397
 30
0.0
 11
9.1107273048
 21
10.2549091279
 31
0.0
  0
SPLINE
  5
9C
330
1F
100
AcDbEntity
  8
0
  6
Continuous
 62
     7
370
    25
100
AcDbSpline
210
0.0
220
0.0
230
1.0
 70
     8
 71
     3
 72
     8
 73
     4
 74
     0
 42
0.000000001
 43
0.00000001
 40
0.0
 40
0.0
 40
0.0
 40
0.0
 40
1.0
 40
1.0
 40
1.0
 40
1.0
 10
12.41781391898949
 20
10.28137076539476
 30
0.0
 10
12.38291714935804
 20
10.27632799515788
 30
0.0
 10
12.34766562694388
 20
10.27209958585187
 30
0.0
 10
12.31211085524424
 20
10.26864841528451
 30
0.0
  0
LINE
  5
9D
330
1F
100
AcDbEntity
  8
0
  6
Continuous
 62
     7
370
    25
100
AcDbLine
 10
12.417813919
 20
10.2813707654
 30
0.0
 11
12.417813919
 21
10.2549091279
 31
0.0
  0
LINE
  5
9E
330
1F
100
AcDbEntity
  8
0
  6
Continuous
 62
     7
370
    25
100
AcDbLine
 10
12.417813919
 20
10.2549091279
 30
0.0
 11
12.2910230653
 21
10.1281182742
 31
0.0
  0
LINE
  5
9F
330
1F
100
AcDbEntity
  8
0
  6
Continuous
 62
     7
370
    25
100
AcDbLine
 10
9.1107273048
 20
10.2813707654
 30
0.0
 11
9.1107273048
 21
10.9491077612
 31
0.0
  0
SPLINE
  5
A0
330
1F
100
AcDbEntity
  8
0
  6
Continuous
 62
     7
370
    25
100
AcDbSpline
210
0.0
220
0.0
230
1.0
 70
     8
 71
     3
 72
     8
 73
     4
 74
     0
 42
0.000000001
 43
0.00000001
 40
0.0000000000000056
 40
0.0000000000000056
 40
0.0000000000000056
 40
0.0000000000000056
 40
0.0024654355797144
 40
0.0024654355797144
 40
0.0024654355797144
 40
0.0024654355797144
 10
9.110727304814073
 20
10.94910776115274
 30
0.0
 10
9.145829497877676
 20
10.95910910086782
 30
0.0
 10
9.181070648787884
 20
10.96917457582381
 30
0.0
 10
9.216430368559328
 20
10.97929288522695
 30
0.0
  0
LINE
  5
A1
330
1F
100
AcDbEntity
  8
0
  6
Continuous
 62
     7
370
    25
100
AcDbLine
 10
12.417813919
 20
10.9566332752
 30
0.0
 11
12.417813919
 21
10.2813707654
 31
0.0
  0
SPLINE
  5
A2
330
1F
100
AcDbEntity
  8
0
  6
Continuous
 62
     7
370
    25
100
AcDbSpline
210
0.0
220
0.0
230
1.0
 70
     8
 71
     3
 72
     8
 73
     4
 74
     0
 42
0.000000001
 43
0.00000001
 40
0.0
 40
0.0
 40
0.0
 40
0.0
 40
0.0024914413592826
 40
0.0024914413592826
 40
0.0024914413592826
 40
0.0024914413592826
 10
12.31211085524424
 20
10.98265763083922
 30
0.0
 10
12.34749037021761
 20
10.9739277465959
 30
0.0
 10
12.38273252819111
 20
10.96524936481688
 30
0.0
 10
12.41781391898949
 20
10.9566332752025
 30
0.0
  0
SPLINE
  5
A3
330
1F
100
AcDbEntity
  8
0
  6
Continuous
 62
     7
370
    25
100
AcDbSpline
210
0.0
220
0.0
230
1.0
 70
     8
 71
     3
 72
     8
 73
     4
 74
     0
 42
0.000000001
 43
0.00000001
 40
0.0
 40
0.0
 40
0.0
 40
0.0
 40
0.0022234603657507
 40
0.0022234603657507
 40
0.0022234603657507
 40
0.0022234603657507
 10
11.10062642637204
 20
6.617904002301216
 30
0.0
 10
11.11849664553459
 20
6.595269100531636
 30
0.0
 10
11.13632524773062
 20
6.572716975760202
 30
0.0
 10
11.15410889508226
 20
6.550259222114026
 30
0.0
  0
LINE
  5
A4
330
1F
100
AcDbEntity
  8
0
  6
Continuous
 62
     7
370
    25
100
AcDbLine
 10
11.2633685338
 20
6.6595188608
 30
0.0
 11
11.1541088951
 21
6.5502592221
 31
0.0
  0
SPLINE
  5
A5
330
1F
100
AcDbEntity
  8
0
  6
Continuous
 62
     7
370
    25
100
AcDbSpline
210
0.0
220
0.0
230
1.0
 70
     8
 71
     3
 72
     8
 73
     4
 74
     0
 42
0.000000001
 43
0.00000001
 40
0.0
 40
0.0
 40
0.0
 40
0.0
 40
0.0022234603657496
 40
0.0022234603657496
 40
0.0022234603657496
 40
0.0022234603657496
 10
10.37443232872347
 20
6.550259222114056
 30
0.0
 10
10.39221597607513
 20
6.572716975760222
 30
0.0
 10
10.41004457827118
 20
6.595269100531646
 30
0.0
 10
10.42791479743375
 20
6.617904002301216
 30
0.0
  0
LINE
  5
A6
330
1F
100
AcDbEntity
  8
0
  6
Continuous
 62
     7
370
    25
100
AcDbLine
 10
10.3744323287
 20
6.5502592221
 30
0.0
 11
10.2632355351
 21
6.6614560157
 31
0.0
  0
SPLINE
  5
A7
330
1F
100
AcDbEntity
  8
0
  6
Continuous
 62
     7
370
    25
100
AcDbSpline
210
0.0
220
0.0
230
1.0
 70
    24
 71
     3
 72
     8
 73
     4
 74
     0
 42
0.000000001
 43
0.00000001
 40
0.0
 40
0.0
 40
0.0
 40
0.0
 40
0.0008731392358986
 40
0.0008731392358986
 40
0.0008731392358986
 40
0.0008731392358986
 10
11.15410889508226
 20
6.550259222114026
 30
0.0
 10
11.14489025169255
 20
6.541040578724318
 30
0.0
 10
11.13567893992825
 20
6.531829266960025
 30
0.0
 10
11.12647533631232
 20
6.522625663344095
 30
0.0
  0
LINE
  5
A8
330
1F
100
AcDbEntity
  8
0
  6
Continuous
 62
     7
370
    25
100
AcDbLine
 10
11.1264753363
 20
6.5226256633
 30
0.0
 11
10.4020658875
 21
6.5226256633
 31
0.0
  0
SPLINE
  5
A9
330
1F
100
AcDbEntity
  8
0
  6
Continuous
 62
     7
370
    25
100
AcDbSpline
210
0.0
220
0.0
230
1.0
 70
    24
 71
     3
 72
     8
 73
     4
 74
     0
 42
0.000000001
 43
0.00000001
 40
0.0
 40
0.0
 40
0.0
 40
0.0
 40
0.0008731392358997
 40
0.0008731392358997
 40
0.0008731392358997
 40
0.0008731392358997
 10
10.40206588749343
 20
6.522625663344095
 30
0.0
 10
10.39286228387749
 20
6.531829266960035
 30
0.0
 10
10.38365097211319
 20
6.541040578724338
 30
0.0
 10
10.37443232872347
 20
6.550259222114055
 30
0.0
  0
SPLINE
  5
AA
330
1F
100
AcDbEntity
  8
0
  6
Continuous
 62
     7
370
    25
100
AcDbSpline
210
0.0
220
0.0
230
1.0
 70
     8
 71
     3
 72
    29
 73
    25
 74
     0
 42
0.000000001
 43
0.00000001
 40
0.0
 40
0.0
 40
0.0
 40
0.0
 40
0.0156176638710664
 40
0.0312315103340331
 40
0.0468448047586953
 40
0.062460812861167
 40
0.0780827986556865
 40
0.093714022411814
 40
0.1093577386233254
 40
0.1250171939951083
 40
0.1876315075468232
 40
0.2503233284330047
 40
0.3125223898370287
 40
0.374793276114651
 40
0.4999982223212677
 40
0.6251989132962454
 40
0.6874690453156362
 40
0.7496800108207345
 40
0.8123759998329192
 40
0.8750078895598173
 40
0.9063021483082988
 40
0.9375482188586409
 40
0.9687721385177279
 40
1.0
 40
1.0
 40
1.0
 40
1.0
 10
9.28074129145186
 20
11.14417972542599
 30
0.0
 10
9.2950507121855
 20
11.14476231925164
 30
0.0
 10
9.323666056017084
 20
11.14592736450019
 30
0.0
 10
9.366968772498025
 20
11.14762495687393
 30
0.0
 10
9.410538234798913
 20
11.14928419095484
 30
0.0
 10
9.454402450694854
 20
11.15090054771904
 30
0.0
 10
9.498553902200753
 20
11.15247391279185
 30
0.0
 10
9.54299446068843
 20
11.15400298041292
 30
0.0
 10
9.587723954899657
 20
11.1554867644394
 30
0.0
 10
9.67771418430257
 20
11.15836013907528
 30
0.0
 10
9.814570956409046
 20
11.16230539034062
 30
0.0
 10
9.999727312568162
 20
11.16669868647733
 30
0.0
 10
10.18704306010704
 20
11.17017662370506
 30
0.0
 10
10.43939476491606
 20
11.17355079034494
 30
0.0
 10
10.75879153363048
 20
11.17530261046653
 30
0.0
 10
11.07824684203965
 20
11.17364734969513
 30
0.0
 10
11.33072410930757
 20
11.1703472235909
 30
0.0
 10
11.51817855352741
 20
11.16692226418064
 30
0.0
 10
11.70352943658043
 20
11.16257862163318
 30
0.0
 10
11.85574107881741
 20
11.15823385578585
 30
0.0
 10
11.97552324397487
 20
11.1543685015533
 30
0.0
 10
12.06422659413959
 20
11.15128304033933
 30
0.0
 10
12.15187483385247
 20
11.14803444833327
 30
0.0
 10
12.20930729583712
 20
11.14573133662241
 30
0.0
 10
12.23802533933667
 20
11.14457970808323
 30
0.0
  0
SPLINE
  5
AB
330
1F
100
AcDbEntity
  8
0
  6
Continuous
 62
     7
370
    25
100
AcDbSpline
210
0.0
220
0.0
230
1.0
 70
     8
 71
     3
 72
     9
 73
     5
 74
     0
 42
0.000000001
 43
0.00000001
 40
0.0
 40
0.0
 40
0.0
 40
0.0
 40
0.4913562184912757
 40
1.0
 40
1.0
 40
1.0
 40
1.0
 10
12.23802507950301
 20
11.14457976376174
 30
0.0
 10
12.24028308290563
 20
11.12807743809235
 30
0.0
 10
12.24487853385881
 20
11.09449217947884
 30
0.0
 10
12.24896598891808
 20
11.06084027076597
 30
0.0
 10
12.25104504751617
 20
11.04372343666327
 30
0.0
  0
SPLINE
  5
AC
330
1F
100
AcDbEntity
  8
0
  6
Continuous
 62
     7
370
    25
100
AcDbSpline
210
0.0
220
0.0
230
1.0
 70
     8
 71
     3
 72
     9
 73
     5
 74
     0
 42
0.000000001
 43
0.00000001
 40
0.0
 40
0.0
 40
0.0
 40
0.0
 40
0.5083898567348948
 40
1.0
 40
1.0
 40
1.0
 40
1.0
 10
9.275137126790368
 20
11.04363149219404
 30
0.0
 10
9.275959816375202
 20
11.06069736662402
 30
0.0
 10
9.277578042179545
 20
11.09426584601812
 30
0.0
 10
9.279698906936524
 20
11.12772897199136
 30
0.0
 10
9.280741545563547
 20
11.14417978414517
 30
0.0
  0
LINE
  5
AD
330
1F
100
AcDbEntity
  8
0
  6
Continuous
 62
     7
370
    25
100
AcDbLine
 10
9.1107273048
 20
10.9715921013
 30
0.0
 11
9.267717495
 21
11.1436426677
 31
0.0
  0
LINE
  5
AE
330
1F
100
AcDbEntity
  8
0
  6
Continuous
 62
     7
370
    25
100
AcDbLine
 10
9.267717495
 20
11.1436426677
 30
0.0
 11
9.2807415023
 21
11.1441797341
 31
0.0
  0
SPLINE
  5
AF
330
1F
100
AcDbEntity
  8
0
  6
Continuous
 62
     7
370
    25
100
AcDbSpline
210
0.0
220
0.0
230
1.0
 70
    24
 71
     3
 72
     8
 73
     4
 74
     0
 42
0.000000001
 43
0.00000001
 40
0.0
 40
0.0
 40
0.0
 40
0.0
 40
1.0
 40
1.0
 40
1.0
 40
1.0
 10
9.110727304814073
 20
10.94910776115355
 30
0.0
 10
9.110727304814073
 20
10.9566155299086
 30
0.0
 10
9.110727304814073
 20
10.9641104894949
 30
0.0
 10
9.110727304814073
 20
10.97159210125037
 30
0.0
  0
LINE
  5
B0
330
1F
100
AcDbEntity
  8
0
  6
Continuous
 62
     7
370
    25
100
AcDbLine
 10
12.2531738008
 20
11.1439586949
 30
0.0
 11
12.417813919
 21
10.9793185767
 31
0.0
  0
LINE
  5
B1
330
1F
100
AcDbEntity
  8
0
  6
Continuous
 62
     7
370
    25
100
AcDbLine
 10
12.2380251223
 20
11.1445797169
 30
0.0
 11
12.2531738008
 21
11.1439586949
 31
0.0
  0
SPLINE
  5
B2
330
1F
100
AcDbEntity
  8
0
  6
Continuous
 62
     7
370
    25
100
AcDbSpline
210
0.0
220
0.0
230
1.0
 70
    24
 71
     3
 72
     8
 73
     4
 74
     0
 42
0.000000001
 43
0.00000001
 40
0.0
 40
0.0
 40
0.0
 40
0.0
 40
0.0007181722445457
 40
0.0007181722445457
 40
0.0007181722445457
 40
0.0007181722445457
 10
12.41781391898949
 20
10.97931857672991
 30
0.0
 10
12.41781391898949
 20
10.97176753395338
 30
0.0
 10
12.41781391898949
 20
10.96420559886496
 30
0.0
 10
12.41781391898949
 20
10.9566332752025
 30
0.0
  0
LINE
  5
B3
330
1F
100
AcDbEntity
  8
0
  6
Continuous
 62
     7
370
    18
100
AcDbLine
 10
10.7642706119
 20
8.8060902303
 30
0.0
 11
14.3071880595
 21
8.8060902303
 31
0.0
  0
LINE
  5
B4
330
1F
100
AcDbEntity
  8
0
  6
Continuous
 62
     7
370
    18
100
AcDbLine
 10
10.7642706119
 20
8.8060902303
 30
0.0
 11
12.5832254045
 21
7.8209223377
 31
0.0
  0
LINE
  5
B5
330
1F
100
AcDbEntity
  8
0
  6
Continuous
 62
     7
370
    18
100
AcDbLine
 10
12.5869776236
 20
9.7842985227
 30
0.0
 11
13.8961591258
 21
10.4869085382
 31
0.0
  0
LINE
  5
B6
330
1F
100
AcDbEntity
  8
0
  6
Continuous
 62
     7
370
    18
100
AcDbLine
 10
12.417813919
 20
10.2549091279
 30
0.0
 11
12.260333604
 21
10.097428813
 31
0.0
  0
LINE
  5
B7
330
1F
100
AcDbEntity
  8
0
  6
Continuous
 62
     7
370
    18
100
AcDbLine
 10
9.1107273048
 20
10.2549091279
 30
0.0
 11
9.2682076198
 21
10.097428813
 31
0.0
  0
LINE
  5
B8
330
1F
100
AcDbEntity
  8
0
  6
Continuous
 62
     7
370
    18
100
AcDbLine
 10
11.2839556513
 20
6.6801059783
 30
0.0
 11
11.2839556513
 21
7.0403148844
 31
0.0
  0
LINE
  5
B9
330
1F
100
AcDbEntity
  8
0
  6
Continuous
 62
     7
370
    18
100
AcDbLine
 10
10.2445855725
 20
6.6801059783
 30
0.0
 11
10.2445855725
 21
6.9928918316
 31
0.0
  0
ARC
  5
BA
330
1F
100
AcDbEntity
  8
0
  6
Continuous
 62
     7
370
    18
100
AcDbCircle
 10
10.7642706119
 20
8.8060902303
 30
0.0
 40
2.068611204156907
100
AcDbArc
 50
28.2215142589
 51
40.9871446849
  0
ARC
  5
BB
330
1F
100
AcDbEntity
  8
0
  6
Continuous
 62
     7
370
    18
100
AcDbCircle
 10
10.7642706119
 20
8.8060902303
 30
0.0
 40
2.068611204156906
100
AcDbArc
 50
284.5499614065
 51
331.5594894408
  0
ARC
  5
BC
330
1F
100
AcDbEntity
  8
0
  6
Continuous
 62
     7
370
    18
100
AcDbCircle
 10
10.7642706119
 20
8.8060902303
 30
0.0
 40
2.068611204156906
100
AcDbArc
 50
139.0128553151
 51
255.4500385936
  0
ENDSEC
  0
SECTION
  2
OBJECTS
  0
DICTIONARY
  5
C
330
0
100
AcDbDictionary
281
     1
  3
ACAD_GROUP
350
D
  3
ACAD_LAYOUT
350
1A
  3
ACAD_MLINESTYLE
350
17
  3
ACAD_PLOTSETTINGS
350
19
  3
ACAD_PLOTSTYLENAME
350
E
  3
ACAD_SCALELIST
350
47
  0
DICTIONARY
  5
D
102
{ACAD_REACTORS
330
C
102
}
330
C
100
AcDbDictionary
281
     1
  0
DICTIONARY
  5
1A
102
{ACAD_REACTORS
330
C
102
}
330
C
100
AcDbDictionary
281
     1
  3
Layout1
350
1E
  3
Layout2
350
26
  3
Model
350
22
  0
DICTIONARY
  5
17
102
{ACAD_REACTORS
330
C
102
}
330
C
100
AcDbDictionary
281
     1
  3
Standard
350
18
  0
DICTIONARY
  5
19
102
{ACAD_REACTORS
330
C
102
}
330
C
100
AcDbDictionary
281
     1
  0
ACDBDICTIONARYWDFLT
  5
E
102
{ACAD_REACTORS
330
C
102
}
330
C
100
AcDbDictionary
281
     1
  3
Normal
350
F
100
AcDbDictionaryWithDefault
340
F
  0
DICTIONARY
  5
47
102
{ACAD_REACTORS
330
C
102
}
330
C
100
AcDbDictionary
281
     1
  3
A0
350
48
  3
A1
350
49
  3
A2
350
4A
  3
A3
350
4B
  3
A4
350
4C
  3
A5
350
4D
  3
A6
350
4E
  3
A7
350
4F
  3
A8
350
50
  3
A9
350
51
  3
B0
350
52
  3
B1
350
53
  3
B2
350
54
  3
B3
350
55
  3
B4
350
56
  3
B5
350
57
  3
B6
350
58
  3
B7
350
59
  3
B8
350
5A
  3
B9
350
5B
  3
C0
350
5C
  3
C1
350
5D
  3
C2
350
5E
  3
C3
350
5F
  3
C4
350
60
  3
C5
350
61
  3
C6
350
62
  3
C7
350
63
  3
C8
350
64
  3
C9
350
65
  3
D0
350
66
  3
D1
350
67
  3
D2
350
68
  0
LAYOUT
  5
1E
102
{ACAD_REACTORS
330
1A
102
}
330
1A
100
AcDbPlotSettings
  1

  2
none_device
  4

  6

 40
0.0
 41
0.0
 42
0.0
 43
0.0
 44
0.0
 45
0.0
 46
0.0
 47
0.0
 48
0.0
 49
0.0
140
0.0
141
0.0
142
1.0
143
1.0
 70
   688
 72
     0
 73
     0
 74
     5
  7

 75
    16
147
1.0
148
0.0
149
0.0
100
AcDbLayout
  1
Layout1
 70
     1
 71
     1
 10
0.0
 20
0.0
 11
12.0
 21
9.0
 12
0.0
 22
0.0
 32
0.0
 14
1.0000000000E+20
 24
1.0000000000E+20
 34
1.0000000000E+20
 15
-1.0000000000E+20
 25
-1.0000000000E+20
 35
-1.0000000000E+20
146
0.0
 13
0.0
 23
0.0
 33
0.0
 16
1.0
 26
0.0
 36
0.0
 17
0.0
 27
1.0
 37
0.0
 76
     0
330
1B
  0
LAYOUT
  5
26
102
{ACAD_REACTORS
330
1A
102
}
330
1A
100
AcDbPlotSettings
  1

  2
none_device
  4

  6

 40
0.0
 41
0.0
 42
0.0
 43
0.0
 44
0.0
 45
0.0
 46
0.0
 47
0.0
 48
0.0
 49
0.0
140
0.0
141
0.0
142
1.0
143
1.0
 70
   688
 72
     0
 73
     0
 74
     5
  7

 75
    16
147
1.0
148
0.0
149
0.0
100
AcDbLayout
  1
Layout2
 70
     1
 71
     2
 10
0.0
 20
0.0
 11
0.0
 21
0.0
 12
0.0
 22
0.0
 32
0.0
 14
0.0
 24
0.0
 34
0.0
 15
0.0
 25
0.0
 35
0.0
146
0.0
 13
0.0
 23
0.0
 33
0.0
 16
1.0
 26
0.0
 36
0.0
 17
0.0
 27
1.0
 37
0.0
 76
     0
330
23
  0
LAYOUT
  5
22
102
{ACAD_REACTORS
330
1A
102
}
330
1A
100
AcDbPlotSettings
  1

  2
none_device
  4
Letter_(8.50_x_11.00_Inches)
  6

 40
6.35
 41
6.35
 42
6.35000508
 43
6.35000508
 44
215.9
 45
279.4
 46
0.0
 47
0.0
 48
0.0
 49
0.0
140
0.0
141
0.0
142
1.0
143
1.0
 70
  1712
 72
     0
 73
     0
 74
     0
  7

 75
     0
147
1.0
148
0.0
149
0.0
100
AcDbLayout
  1
Model
 70
     1
 71
     0
 10
0.0
 20
0.0
 11
22.0
 21
17.0
 12
0.0
 22
0.0
 32
0.0
 14
0.0
 24
0.0
 34
0.0
 15
22.0
 25
17.0
 35
0.0
146
0.0
 13
0.0
 23
0.0
 33
0.0
 16
1.0
 26
0.0
 36
0.0
 17
0.0
 27
1.0
 37
0.0
 76
     0
330
1F
331
29
  0
MLINESTYLE
  5
18
102
{ACAD_REACTORS
330
17
102
}
330
17
100
AcDbMlineStyle
  2
Standard
 70
     0
  3

 62
   256
 51
90.0
 52
90.0
 71
     2
 49
0.5
 62
   256
  6
BYLAYER
 49
-0.5
 62
   256
  6
BYLAYER
  0
ACDBPLACEHOLDER
  5
F
102
{ACAD_REACTORS
330
E
102
}
330
E
  0
SCALE
  5
48
102
{ACAD_REACTORS
330
47
102
}
330
47
100
AcDbScale
 70
     0
300
1:1
140
1.0
141
1.0
290
     1
  0
SCALE
  5
49
102
{ACAD_REACTORS
330
47
102
}
330
47
100
AcDbScale
 70
     0
300
1:2
140
1.0
141
2.0
290
     0
  0
SCALE
  5
4A
102
{ACAD_REACTORS
330
47
102
}
330
47
100
AcDbScale
 70
     0
300
1:4
140
1.0
141
4.0
290
     0
  0
SCALE
  5
4B
102
{ACAD_REACTORS
330
47
102
}
330
47
100
AcDbScale
 70
     0
300
1:5
140
1.0
141
5.0
290
     0
  0
SCALE
  5
4C
102
{ACAD_REACTORS
330
47
102
}
330
47
100
AcDbScale
 70
     0
300
1:8
140
1.0
141
8.0
290
     0
  0
SCALE
  5
4D
102
{ACAD_REACTORS
330
47
102
}
330
47
100
AcDbScale
 70
     0
300
1:10
140
1.0
141
10.0
290
     0
  0
SCALE
  5
4E
102
{ACAD_REACTORS
330
47
102
}
330
47
100
AcDbScale
 70
     0
300
1:16
140
1.0
141
16.0
290
     0
  0
SCALE
  5
4F
102
{ACAD_REACTORS
330
47
102
}
330
47
100
AcDbScale
 70
     0
300
1:20
140
1.0
141
20.0
290
     0
  0
SCALE
  5
50
102
{ACAD_REACTORS
330
47
102
}
330
47
100
AcDbScale
 70
     0
300
1:30
140
1.0
141
30.0
290
     0
  0
SCALE
  5
51
102
{ACAD_REACTORS
330
47
102
}
330
47
100
AcDbScale
 70
     0
300
1:40
140
1.0
141
40.0
290
     0
  0
SCALE
  5
52
102
{ACAD_REACTORS
330
47
102
}
330
47
100
AcDbScale
 70
     0
300
1:50
140
1.0
141
50.0
290
     0
  0
SCALE
  5
53
102
{ACAD_REACTORS
330
47
102
}
330
47
100
AcDbScale
 70
     0
300
1:100
140
1.0
141
100.0
290
     0
  0
SCALE
  5
54
102
{ACAD_REACTORS
330
47
102
}
330
47
100
AcDbScale
 70
     0
300
2:1
140
2.0
141
1.0
290
     0
  0
SCALE
  5
55
102
{ACAD_REACTORS
330
47
102
}
330
47
100
AcDbScale
 70
     0
300
4:1
140
4.0
141
1.0
290
     0
  0
SCALE
  5
56
102
{ACAD_REACTORS
330
47
102
}
330
47
100
AcDbScale
 70
     0
300
8:1
140
8.0
141
1.0
290
     0
  0
SCALE
  5
57
102
{ACAD_REACTORS
330
47
102
}
330
47
100
AcDbScale
 70
     0
300
10:1
140
10.0
141
1.0
290
     0
  0
SCALE
  5
58
102
{ACAD_REACTORS
330
47
102
}
330
47
100
AcDbScale
 70
     0
300
100:1
140
100.0
141
1.0
290
     0
  0
SCALE
  5
59
102
{ACAD_REACTORS
330
47
102
}
330
47
100
AcDbScale
 70
     0
300
1/128" = 1'-0"
140
0.0078125
141
12.0
290
     0
  0
SCALE
  5
5A
102
{ACAD_REACTORS
330
47
102
}
330
47
100
AcDbScale
 70
     0
300
1/64" = 1'-0"
140
0.015625
141
12.0
290
     0
  0
SCALE
  5
5B
102
{ACAD_REACTORS
330
47
102
}
330
47
100
AcDbScale
 70
     0
300
1/32" = 1'-0"
140
0.03125
141
12.0
290
     0
  0
SCALE
  5
5C
102
{ACAD_REACTORS
330
47
102
}
330
47
100
AcDbScale
 70
     0
300
1/16" = 1'-0"
140
0.0625
141
12.0
290
     0
  0
SCALE
  5
5D
102
{ACAD_REACTORS
330
47
102
}
330
47
100
AcDbScale
 70
     0
300
3/32" = 1'-0"
140
0.09375
141
12.0
290
     0
  0
SCALE
  5
5E
102
{ACAD_REACTORS
330
47
102
}
330
47
100
AcDbScale
 70
     0
300
1/8" = 1'-0"
140
0.125
141
12.0
290
     0
  0
SCALE
  5
5F
102
{ACAD_REACTORS
330
47
102
}
330
47
100
AcDbScale
 70
     0
300
3/16" = 1'-0"
140
0.1875
141
12.0
290
     0
  0
SCALE
  5
60
102
{ACAD_REACTORS
330
47
102
}
330
47
100
AcDbScale
 70
     0
300
1/4" = 1'-0"
140
0.25
141
12.0
290
     0
  0
SCALE
  5
61
102
{ACAD_REACTORS
330
47
102
}
330
47
100
AcDbScale
 70
     0
300
3/8" = 1'-0"
140
0.375
141
12.0
290
     0
  0
SCALE
  5
62
102
{ACAD_REACTORS
330
47
102
}
330
47
100
AcDbScale
 70
     0
300
1/2" = 1'-0"
140
0.5
141
12.0
290
     0
  0
SCALE
  5
63
102
{ACAD_REACTORS
330
47
102
}
330
47
100
AcDbScale
 70
     0
300
3/4" = 1'-0"
140
0.75
141
12.0
290
     0
  0
SCALE
  5
64
102
{ACAD_REACTORS
330
47
102
}
330
47
100
AcDbScale
 70
     0
300
1" = 1'-0"
140
1.0
141
12.0
290
     0
  0
SCALE
  5
65
102
{ACAD_REACTORS
330
47
102
}
330
47
100
AcDbScale
 70
     0
300
1-1/2" = 1'-0"
140
1.5
141
12.0
290
     0
  0
SCALE
  5
66
102
{ACAD_REACTORS
330
47
102
}
330
47
100
AcDbScale
 70
     0
300
3" = 1'-0"
140
3.0
141
12.0
290
     0
  0
SCALE
  5
67
102
{ACAD_REACTORS
330
47
102
}
330
47
100
AcDbScale
 70
     0
300
6" = 1'-0"
140
6.0
141
12.0
290
     0
  0
SCALE
  5
68
102
{ACAD_REACTORS
330
47
102
}
330
47
100
AcDbScale
 70
     0
300
1'-0" = 1'-0"
140
12.0
141
12.0
290
     0
  0
ENDSEC
  0
EOF
